0
SECTION
2
HEADER
9
$INSUNITS
70
1
9
$ACADVER
1
AC1014
9
$HANDSEED
5
FFFF
0
ENDSEC
0
SECTION
2
TABLES
0
TABLE
2
VPORT
5
8
100
AcDbSymbolTable
0
ENDTAB
0
TABLE
2
LTYPE
5
5
100
AcDbSymbolTable
0
LTYPE
5
14
100
AcDbSymbolTableRecord
100
AcDbLinetypeTableRecord
2
BYBLOCK
70
0
0
LTYPE
5
15
100
AcDbSymbolTableRecord
100
AcDbLinetypeTableRecord
2
BYLAYER
70
0
0
ENDTAB
0
TABLE
2
LAYER
5
2
100
AcDbSymbolTable
70
2
0
LAYER
5
50
100
AcDbSymbolTableRecord
100
AcDbLayerTableRecord
2
0
70
0
6
CONTINUOUS
0
ENDTAB
0
TABLE
2
STYLE
5
3
100
AcDbSymbolTable
70
1
0
STYLE
5
11
100
AcDbSymbolTableRecord
100
AcDbTextStyleTableRecord
2
STANDARD
70
0
0
ENDTAB
0
TABLE
2
VIEW
5
6
100
AcDbSymbolTable
70
0
0
ENDTAB
0
TABLE
2
UCS
5
7
100
AcDbSymbolTable
70
0
0
ENDTAB
0
TABLE
2
APPID
5
9
100
AcDbSymbolTable
70
2
0
APPID
5
12
100
AcDbSymbolTableRecord
100
AcDbRegAppTableRecord
2
ACAD
70
0
0
ENDTAB
0
TABLE
2
DIMSTYLE
5
A
100
AcDbSymbolTable
70
1
0
ENDTAB
0
TABLE
2
BLOCK_RECORD
5
1
100
AcDbSymbolTable
70
1
0
BLOCK_RECORD
5
1F
100
AcDbSymbolTableRecord
100
AcDbBlockTableRecord
2
*MODEL_SPACE
0
BLOCK_RECORD
5
1B
100
AcDbSymbolTableRecord
100
AcDbBlockTableRecord
2
*PAPER_SPACE
0
ENDTAB
0
ENDSEC
0
SECTION
2
BLOCKS
0
BLOCK
5
20
100
AcDbEntity
100
AcDbBlockBegin
2
*MODEL_SPACE
0
ENDBLK
5
21
100
AcDbEntity
100
AcDbBlockEnd
0
BLOCK
5
1C
100
AcDbEntity
100
AcDbBlockBegin
2
*PAPER_SPACE
0
ENDBLK
5
1D
100
AcDbEntity
100
AcDbBlockEnd
0
ENDSEC
0
SECTION
2
ENTITIES
0
ARC
5
100
100
AcDbEntity
8
0
100
AcDbCircle
10
-27.75001066035016
20
-21.506185292942838
30
0
40
0.1249999999999987
100
AcDbArc
50
-135
51
45.000000000001151
0
LINE
5
101
100
AcDbEntity
8
0
100
AcDbLine
10
-27.838399007998479
20
-21.594573640591157
30
0
11
-28.030126249709721
21
-21.59457364059115
31
0
0
LINE
5
102
100
AcDbEntity
8
0
100
AcDbLine
10
-28.030126249709721
20
-21.59457364059115
30
0
11
-28.030126249709717
21
-24.59457364059115
31
0
0
LINE
5
103
100
AcDbEntity
8
0
100
AcDbLine
10
-28.030126249709717
20
-24.59457364059115
30
0
11
-27.838399007998479
21
-24.59457364059115
31
0
0
ARC
5
104
100
AcDbEntity
8
0
100
AcDbCircle
10
-27.75001066035016
20
-24.682961988239477
30
0
40
0.1249999999999987
100
AcDbArc
50
-44.999999999997712
51
134.99999999999773
0
LINE
5
105
100
AcDbEntity
8
0
100
AcDbLine
10
-27.661622312701841
20
-24.771350335887789
30
0
11
-27.661622312701844
21
-33.147067078911356
31
0
0
LINE
5
106
100
AcDbEntity
8
0
100
AcDbLine
10
-27.661622312701844
20
-33.147067078911356
30
0
11
-21.285905569678871
21
-33.147067078911356
31
0
0
ARC
5
107
100
AcDbEntity
8
0
100
AcDbCircle
10
-21.197517222030555
20
-33.235455426559682
30
0
40
0.12500000000000266
100
AcDbArc
50
-45
51
134.99999999999653
0
LINE
5
108
100
AcDbEntity
8
0
100
AcDbLine
10
-21.109128874382236
20
-33.323843774208001
30
0
11
-21.109128874382233
21
-33.761240307257815
31
0
0
LINE
5
109
100
AcDbEntity
8
0
100
AcDbLine
10
-21.109128874382233
20
-33.761240307257815
30
0
11
-18.109128874382233
21
-33.761240307257815
31
0
0
LINE
5
110
100
AcDbEntity
8
0
100
AcDbLine
10
-18.109128874382233
20
-33.761240307257815
30
0
11
-18.109128874382233
21
-33.323843774208001
31
0
0
ARC
5
111
100
AcDbEntity
8
0
100
AcDbCircle
10
-18.020740526733917
20
-33.235455426559675
30
0
40
0.1249999999999987
100
AcDbArc
50
45
51
225.00000000000347
0
LINE
5
112
100
AcDbEntity
8
0
100
AcDbLine
10
-17.932352179085598
20
-33.147067078911356
30
0
11
-12.619238903012212
21
-33.147067078911363
31
0
0
ARC
5
113
100
AcDbEntity
8
0
100
AcDbCircle
10
-12.530850555363887
20
-33.235455426559682
30
0
40
0.12500000000000167
100
AcDbArc
50
-45.000000000000561
51
135.00000000000173
0
LINE
5
114
100
AcDbEntity
8
0
100
AcDbLine
10
-12.44246220771557
20
-33.323843774208001
30
0
11
-12.442462207715568
21
-33.761240307257815
31
0
0
LINE
5
115
100
AcDbEntity
8
0
100
AcDbLine
10
-12.442462207715568
20
-33.761240307257815
30
0
11
-9.4424622077155682
21
-33.761240307257822
31
0
0
LINE
5
116
100
AcDbEntity
8
0
100
AcDbLine
10
-9.4424622077155682
20
-33.761240307257822
30
0
11
-9.4424622077155682
21
-33.323843774207994
31
0
0
ARC
5
117
100
AcDbEntity
8
0
100
AcDbCircle
10
-9.3540738600672508
20
-33.235455426559682
30
0
40
0.12499999999999772
100
AcDbArc
50
44.999999999996547
51
224.99999999999827
0
LINE
5
118
100
AcDbEntity
8
0
100
AcDbLine
10
-9.2656855124189281
20
-33.14706707891137
30
0
11
-2.2757955410488999
21
-33.147067078911363
31
0
0
LINE
5
119
100
AcDbEntity
8
0
100
AcDbLine
10
-2.2757955410488999
20
-33.147067078911363
30
0
11
-2.2757955410488941
21
-2.3754135356042867
31
0
0
LINE
5
120
100
AcDbEntity
8
0
100
AcDbLine
10
-2.2757955410488941
20
-2.3754135356042867
30
0
11
-9.2656855124189228
21
-2.3754135356042867
31
0
0
ARC
5
121
100
AcDbEntity
8
0
100
AcDbCircle
10
-9.354073860067242
20
-2.2870251879559702
30
0
40
0.12500000000000042
100
AcDbArc
50
135.00000000000071
51
315.00000000000085
0
LINE
5
122
100
AcDbEntity
8
0
100
AcDbLine
10
-9.4424622077155611
20
-2.1986368403076533
30
0
11
-9.4424622077155611
21
-1.761240307257832
31
0
0
LINE
5
123
100
AcDbEntity
8
0
100
AcDbLine
10
-9.4424622077155611
20
-1.761240307257832
30
0
11
-12.442462207715561
21
-1.761240307257832
31
0
0
LINE
5
124
100
AcDbEntity
8
0
100
AcDbLine
10
-12.442462207715561
20
-1.761240307257832
30
0
11
-12.442462207715561
21
-2.1986368403076533
31
0
0
ARC
5
125
100
AcDbEntity
8
0
100
AcDbCircle
10
-12.53085055536388
20
-2.2870251879559702
30
0
40
0.12499999999999994
100
AcDbArc
50
-135.00000000000145
51
44.999999999999275
0
LINE
5
126
100
AcDbEntity
8
0
100
AcDbLine
10
-12.619238903012201
20
-2.3754135356042867
30
0
11
-17.932352179085591
21
-2.375413535604284
31
0
0
ARC
5
127
100
AcDbEntity
8
0
100
AcDbCircle
10
-18.020740526733913
20
-2.2870251879559658
30
0
40
0.12499999999999944
100
AcDbArc
50
134.99999999999653
51
315.00000000000142
0
LINE
5
128
100
AcDbEntity
8
0
100
AcDbLine
10
-18.109128874382225
20
-2.1986368403076431
30
0
11
-18.109128874382225
21
-1.7612403072578264
31
0
0
LINE
5
129
100
AcDbEntity
8
0
100
AcDbLine
10
-18.109128874382225
20
-1.7612403072578264
30
0
11
-21.109128874382225
21
-1.7612403072578264
31
0
0
LINE
5
130
100
AcDbEntity
8
0
100
AcDbLine
10
-21.109128874382225
20
-1.7612403072578264
30
0
11
-21.109128874382229
21
-2.1986368403076462
31
0
0
ARC
5
131
100
AcDbEntity
8
0
100
AcDbCircle
10
-21.197517222030545
20
-2.2870251879559649
30
0
40
0.12500000000000094
100
AcDbArc
50
-134.99999999999986
51
44.999998792581721
0
LINE
5
132
100
AcDbEntity
8
0
100
AcDbLine
10
-21.285905569678864
20
-2.3754135356042845
30
0
11
-27.661622312701841
21
-2.375413535604284
31
0
0
LINE
5
133
100
AcDbEntity
8
0
100
AcDbLine
10
-27.661622312701841
20
-2.375413535604284
30
0
11
-27.661622312701841
21
-10.751130278627857
31
0
0
ARC
5
134
100
AcDbEntity
8
0
100
AcDbCircle
10
-27.750010660350156
20
-10.839518626276174
30
0
40
0.12499999999999968
100
AcDbArc
50
-134.99999999999827
51
45.000000000000568
0
LINE
5
135
100
AcDbEntity
8
0
100
AcDbLine
10
-27.838399007998472
20
-10.927906973924495
30
0
11
-28.03012624970971
21
-10.927906973924491
31
0
0
LINE
5
136
100
AcDbEntity
8
0
100
AcDbLine
10
-28.03012624970971
20
-10.927906973924491
30
0
11
-28.030126249709717
21
-13.927906973924493
31
0
0
LINE
5
137
100
AcDbEntity
8
0
100
AcDbLine
10
-28.030126249709717
20
-13.927906973924493
30
0
11
-27.838399007998465
21
-13.92790697392449
31
0
0
ARC
5
138
100
AcDbEntity
8
0
100
AcDbCircle
10
-27.750010660350156
20
-14.016295321572812
30
0
40
0.12499999999999674
100
AcDbArc
50
-45
51
134.99999999999542
0
LINE
5
139
100
AcDbEntity
8
0
100
AcDbLine
10
-27.661622312701841
20
-14.104683669221128
30
0
11
-27.661622312701844
21
-21.417796945294519
31
0
0
ARC
5
140
100
AcDbEntity
8
0
100
AcDbCircle
10
-14.80158042174703
20
-10.905468549919272
30
0
40
0.12500000000000167
100
AcDbArc
50
45
51
225.00000000000057
0
LINE
5
141
100
AcDbEntity
8
0
100
AcDbLine
10
-14.713192074098711
20
-10.817080202270953
30
0
11
-14.452572236345532
21
-10.817080202270953
31
0
0
ARC
5
142
100
AcDbEntity
8
0
100
AcDbCircle
10
-14.364183888697216
20
-10.905468549919274
30
0
40
0.12500000000000167
100
AcDbArc
50
-44.999999999998273
51
134.99999999999827
0
LINE
5
143
100
AcDbEntity
8
0
100
AcDbLine
10
-14.275795541048893
20
-10.993856897567591
30
0
11
-14.275795541048897
21
-13.640303506974318
31
0
0
ARC
5
144
100
AcDbEntity
8
0
100
AcDbCircle
10
-14.364183888697216
20
-13.728691854622639
30
0
40
0.12500000000000069
100
AcDbArc
50
-135.00000000000173
51
45.000000000000568
0
LINE
5
145
100
AcDbEntity
8
0
100
AcDbLine
10
-14.452572236345537
20
-13.817080202270954
30
0
11
-14.713192074098707
21
-13.817080202270954
31
0
0
ARC
5
146
100
AcDbEntity
8
0
100
AcDbCircle
10
-14.80158042174703
20
-13.728691854622639
30
0
40
0.12500000000000069
100
AcDbArc
50
135
51
315.00000000000227
0
LINE
5
147
100
AcDbEntity
8
0
100
AcDbLine
10
-14.889968769395349
20
-13.64030350697432
30
0
11
-14.889968769395349
21
-10.993856897567593
31
0
0
ARC
5
148
100
AcDbEntity
8
0
100
AcDbCircle
10
-14.801580421747035
20
-24.617012064596381
30
0
40
0.1249999999999987
100
AcDbArc
50
134.99999999999886
51
314.99999999999881
0
LINE
5
149
100
AcDbEntity
8
0
100
AcDbLine
10
-14.889968769395351
20
-24.528623716948061
30
0
11
-14.889968769395351
21
-21.882177107541334
31
0
0
ARC
5
150
100
AcDbEntity
8
0
100
AcDbCircle
10
-14.801580421747035
20
-21.793788759893019
30
0
40
0.12500000000000266
100
AcDbArc
50
44.999999999998273
51
225
0
LINE
5
151
100
AcDbEntity
8
0
100
AcDbLine
10
-14.713192074098711
20
-21.7054004122447
30
0
11
-14.452572236345533
21
-21.705400412244696
31
0
0
ARC
5
152
100
AcDbEntity
8
0
100
AcDbCircle
10
-14.364183888697212
20
-21.793788759893015
30
0
40
0.12500000000000069
100
AcDbArc
50
-45.000000000002906
51
135.0000000000006
0
LINE
5
153
100
AcDbEntity
8
0
100
AcDbLine
10
-14.275795541048899
20
-21.882177107541338
30
0
11
-14.275795541048899
21
-24.528623716948065
31
0
0
ARC
5
154
100
AcDbEntity
8
0
100
AcDbCircle
10
-14.364183888697216
20
-24.617012064596381
30
0
40
0.12500000000000266
100
AcDbArc
50
-135.0000000000029
51
44.999999999999424
0
LINE
5
155
100
AcDbEntity
8
0
100
AcDbLine
10
-14.45257223634554
20
-24.705400412244696
30
0
11
-14.713192074098719
21
-24.7054004122447
31
0
0
ARC
5
156
100
AcDbEntity
8
0
100
AcDbCircle
10
-4.3641838886972177
20
-21.793788759893019
30
0
40
0.12500000000000069
100
AcDbArc
50
-45.000000000000306
51
135
0
LINE
5
157
100
AcDbEntity
8
0
100
AcDbLine
10
-4.2757955410488995
20
-21.882177107541338
30
0
11
-4.2757955410488995
21
-24.528623716948061
31
0
0
ARC
5
158
100
AcDbEntity
8
0
100
AcDbCircle
10
-4.3641838886972204
20
-24.617012064596377
30
0
40
0.12500000000000216
100
AcDbArc
50
-134.99999999999858
51
44.999999999998273
0
LINE
5
159
100
AcDbEntity
8
0
100
AcDbLine
10
-4.4525722363455387
20
-24.7054004122447
30
0
11
-4.7131920740987177
21
-24.705400412244696
31
0
0
ARC
5
160
100
AcDbEntity
8
0
100
AcDbCircle
10
-4.8015804217470359
20
-24.617012064596377
30
0
40
0.12499999999999772
100
AcDbArc
50
135.0000000000029
51
314.99999999999972
0
LINE
5
161
100
AcDbEntity
8
0
100
AcDbLine
10
-4.8899687693953569
20
-24.528623716948065
30
0
11
-4.889968769395356
21
-21.882177107541338
31
0
0
ARC
5
162
100
AcDbEntity
8
0
100
AcDbCircle
10
-4.8015804217470377
20
-21.793788759893019
30
0
40
0.12500000000000019
100
AcDbArc
50
44.999999999999424
51
225.00000000000028
0
LINE
5
163
100
AcDbEntity
8
0
100
AcDbLine
10
-4.7131920740987168
20
-21.7054004122447
30
0
11
-4.4525722363455369
21
-21.7054004122447
31
0
0
LWPOLYLINE
5
164
100
AcDbEntity
8
0
100
AcDbPolyline
90
8
70
1
43
0.0
10
-4.4525722363455351
20
-10.817080202270958
42
-0.99999999999999989
10
-4.2757955410488959
20
-10.993856897567593
10
-4.2757955410488995
20
-13.64030350697432
42
-0.99999999999999989
10
-4.4525722363455342
20
-13.817080202270958
10
-4.7131920740987159
20
-13.817080202270954
42
-0.99999999999999989
10
-4.8899687693953542
20
-13.640303506974323
10
-4.8899687693953497
20
-10.993856897567598
42
-0.99999999999999989
10
-4.713192074098715
20
-10.817080202270954
0
ENDSEC
0
SECTION
2
OBJECTS
0
DICTIONARY
5
C
100
AcDbDictionary
3
ACAD_GROUP
350
D
3
ACAD_MLINESTYLE
350
17
0
DICTIONARY
5
D
100
AcDbDictionary
0
DICTIONARY
5
1A
330
C
100
AcDbDictionary
0
DICTIONARY
5
17
100
AcDbDictionary
0
ENDSEC
0
EOF
